Omegaman - The Police (Tab) Login dengan akun Jejaringsosial.com anda Daftar sebuah akun Jejaringsosial.com
 
Go Back   Home > Musik & Lagu

Daftar
Lupa Password?


Gambar Umum Video Umum





 
Reply
 
Thread Tools Search this Thread
Reply With Quote     #1   Report Post  

Omegaman - The Police (Tab)

**intro**

E----12----11----12|----10------------|----12----11----12|----10------| R
B----13----12----13|----12------------|----13----12----13|----12------| E
G-10----10----10---|-10---------------|-10----10----10---|-10---------| P
D------------------|------------------|------------------|------------| E
A------------------|------------------|------------------|------------| A
E------------------|------------------|------------------|------------| T

**1st verse**
Night came down jungle sounds were in my ears
E------------------|------------------|------------------|------------------|
B--6---------------|------------------|--5---------------|------------------|
G--7---------------|------------------|--5---------------|------------------|
D--7---------------|------------------|--5---------------|------------------|
A------------------|------------------|------------------|------------------|
E------------------|------------------|------------------|------------------|

City screams are all I've heard in twenty years
E------------------|------------------|------------------|------------------|
B--6---------------|------------------|--5---------------|------------------|
G--7---------------|------------------|--5---------------|------------------|
D--7---------------|------------------|--5---------------|------------------|
A------------------|------------------|------------------|------------------|
E------------------|------------------|------------------|------------------|

The razor's edge of night it cuts into my sleep
E------------------|------------------|------------------|------------------|
B--6---------------|------------------|--5---------------|------------------|
G--7---------------|------------------|--5---------------|------------------|
D--7---------------|------------------|--5---------------|------------------|
A------------------|------------------|------------------|------------------|
E------------------|------------------|------------------|------------------|

I sit apon the edge now shall I make that leap?
E------------------|------------------|------------------|------------------|
B--6---------------|------------------|--5---------------|------------------|
G--7---------------|------------------|--5---------------|------------------|
D--7---------------|------------------|--5---------------|------------------|
A------------------|------------------|------------------|------------------|
E------------------|------------------|------------------|------------------|

**chorus**
I'm the o - mega - man
E----12----11----12|----10----------------------| R
B----13----12----13|----12----------------------| E
G-10----10----10---|-10---------------| P X 5-|
D------------------|----------------------------| E
A------------------|----------------------------| A
E------------------|----------------------------| T

Always talking to myself Oh.......
E--6---------------|--10--------------|--10--------------|------------------|
B--6---------------|--11--------------|--11--------------|------------------|
G--7---------------|--10--------------|--10--------------|------------------|
D--5---------------|---8--------------|--10--------------|------------------|
A------------------|------------------|------------------|------------------|
E------------------|------------------|------------------|------------------|

**solo (also used in the outro overtop of chorus section)**
E------------------|--------------------| R
B-10---13-^-15-^-13|-^-15-^-13--10--10--| E
G------------------|--------------------| P
D------------------|--------------------| E
A------------------|--------------------| A
E------------------|--------------------| T

**lyrics**

**1st verse**
Night came down jungle sounds were in my ears
City screams are all I've heard in twenty years
The razor's edge of night it cuts into my sleep
I sit apon the edge now shall I make that leap?

**chorus**
I'm the omegaman
I'm the omegaman
The omegaman
I'm the omegaman
I'm the omegaman
Always talking to myself

**2nd verse**
Skys alive with turned on television sets
I walk the streets and seek another vision yet
The echo makes me turn to see the last frontier
The edge of time closes down as I disappear

**repeat chorus**

**3rd verse**
Times that's best is when surroundings fade away
The presence of another world comes close to me
It's time for me to throw away this paper knife
I'm not alone in reaching for a perfect life

**repeat chorus**

**outro**
(I'm so tired)
I'm the omegaman

repeat until fade.

agoenk
City Level

Post: 154
 
Reputasi: 0

 

Reply
 

Thread Tools Search this Thread
Search this Thread:

Advanced Search




Similar Threads
Thread Original Poster Forum Replies
The Other way - The Police (Tab) agoenk Musik & Lagu 0
Next to You - The Police (Tab) agoenk Musik & Lagu 0
De do do do - The Police (Tab) agoenk Musik & Lagu 0
Behind Ky Camel - The Police (Tab) agoenk Musik & Lagu 0
The Beds Too Big - The Police (Tab) agoenk Musik & Lagu 0


Pengumuman Penting

Cari indonesiaindonesia.com
Cari Forum | Post Terbaru | Thread Terbaru | Belum Terjawab


Powered by vBulletin Copyright ©2000 - 2014, Jelsoft Enterprises Ltd.